ISO-10303-21;
HEADER;
/* Generated by software containing ST-Developer
 * from STEP Tools, Inc. (www.steptools.com) 
 */

FILE_DESCRIPTION(
/* description */ (''),
/* implementation_level */ '2;1');

FILE_NAME(
/* name */ '',
/* time_stamp */ '2025-07-24T11:26:55+07:00',
/* author */ ('zeta-86'),
/* organization */ (''),
/* preprocessor_version */ 'ST-DEVELOPER v19.2',
/* originating_system */ 'Autodesk Inventor 2024',
/* authorisation */ '');

FILE_SCHEMA (('AUTOMOTIVE_DESIGN { 1 0 10303 214 3 1 1 }'));
ENDSEC;

DATA;
#10=MECHANICAL_DESIGN_GEOMETRIC_PRESENTATION_REPRESENTATION('',(#13),#436);
#11=SHAPE_REPRESENTATION_RELATIONSHIP('SRR','None',#443,#12);
#12=ADVANCED_BREP_SHAPE_REPRESENTATION('',(#14),#435);
#13=STYLED_ITEM('',(#452),#14);
#14=MANIFOLD_SOLID_BREP('\X2\04220432043504400434043E0435\X0\ \X2\04420435043B043E\X0\2',
#202);
#15=TOROIDAL_SURFACE('',#253,27.25,1.25);
#16=(
BOUNDED_SURFACE()
B_SPLINE_SURFACE(2,2,((#403,#404,#405,#406,#407,#408,#409,#410,#411),(#412,
#413,#414,#415,#416,#417,#418,#419,#420),(#421,#422,#423,#424,#425,#426,
#427,#428,#429)),.UNSPECIFIED.,.F.,.T.,.F.)
B_SPLINE_SURFACE_WITH_KNOTS((3,3),(3,2,2,2,3),(1.32662895292652,1.56209863768466),
(-3.14159265358979,-1.5707963267949,0.,1.5707963267949,3.14159265358979),
 .UNSPECIFIED.)
GEOMETRIC_REPRESENTATION_ITEM()
RATIONAL_B_SPLINE_SURFACE(((1.,0.707106781186548,1.,0.707106781186548,1.,
0.707106781186548,1.,0.707106781186548,1.),(0.993077255621426,0.702211661692037,
0.993077255621426,0.702211661692037,0.993077255621426,0.702211661692037,
0.993077255621426,0.702211661692037,0.993077255621426),(1.,0.707106781186548,
1.,0.707106781186548,1.,0.707106781186548,1.,0.707106781186548,1.)))
REPRESENTATION_ITEM('')
SURFACE()
);
#17=CYLINDRICAL_SURFACE('',#239,56.1841879455565);
#18=CYLINDRICAL_SURFACE('',#248,27.);
#19=CYLINDRICAL_SURFACE('',#249,28.5);
#20=B_SPLINE_CURVE_WITH_KNOTS('',3,(#344,#345,#346,#347,#348,#349,#350,
#351,#352,#353),.UNSPECIFIED.,.F.,.F.,(4,2,2,2,4),(-36.3812220398344,-36.0540756157343,
-34.9446091420963,-33.8351426684582,-33.5079971920697),.UNSPECIFIED.);
#21=B_SPLINE_CURVE_WITH_KNOTS('',3,(#358,#359,#360,#361,#362,#363,#364,
#365,#366,#367),.UNSPECIFIED.,.F.,.F.,(4,2,2,2,4),(33.507997194674,33.8351427174972,
34.9446091420876,36.0540755666779,36.3812220372128),.UNSPECIFIED.);
#22=B_SPLINE_CURVE_WITH_KNOTS('',3,(#371,#372,#373,#374),.UNSPECIFIED.,
 .F.,.F.,(4,4),(6.57810189586273,6.67768078303354),.UNSPECIFIED.);
#23=B_SPLINE_CURVE_WITH_KNOTS('',3,(#376,#377,#378,#379,#380,#381),
 .UNSPECIFIED.,.F.,.F.,(4,2,4),(6.67768078303354,6.76362188669992,6.77755781038944),
 .UNSPECIFIED.);
#24=LINE('',#336,#29);
#25=LINE('',#384,#30);
#26=LINE('',#393,#31);
#27=LINE('',#396,#32);
#28=LINE('',#402,#33);
#29=VECTOR('',#271,26.5);
#30=VECTOR('',#292,24.25);
#31=VECTOR('',#303,26.5);
#32=VECTOR('',#308,27.);
#33=VECTOR('',#315,28.5);
#34=CONICAL_SURFACE('',#230,26.5,0.785398163397445);
#35=CONICAL_SURFACE('',#241,24.25,0.785398163397441);
#36=CONICAL_SURFACE('',#245,26.5,0.785398163397451);
#37=FACE_BOUND('',#53,.T.);
#38=FACE_BOUND('',#61,.T.);
#39=FACE_OUTER_BOUND('',#52,.T.);
#40=FACE_OUTER_BOUND('',#54,.T.);
#41=FACE_OUTER_BOUND('',#55,.T.);
#42=FACE_OUTER_BOUND('',#56,.T.);
#43=FACE_OUTER_BOUND('',#57,.T.);
#44=FACE_OUTER_BOUND('',#58,.T.);
#45=FACE_OUTER_BOUND('',#59,.T.);
#46=FACE_OUTER_BOUND('',#60,.T.);
#47=FACE_OUTER_BOUND('',#62,.T.);
#48=FACE_OUTER_BOUND('',#63,.T.);
#49=FACE_OUTER_BOUND('',#64,.T.);
#50=FACE_OUTER_BOUND('',#65,.T.);
#51=FACE_OUTER_BOUND('',#66,.T.);
#52=EDGE_LOOP('',(#130));
#53=EDGE_LOOP('',(#131));
#54=EDGE_LOOP('',(#132));
#55=EDGE_LOOP('',(#133,#134,#135,#136,#137,#138));
#56=EDGE_LOOP('',(#139,#140));
#57=EDGE_LOOP('',(#141,#142));
#58=EDGE_LOOP('',(#143,#144,#145,#146,#147));
#59=EDGE_LOOP('',(#148,#149,#150,#151));
#60=EDGE_LOOP('',(#152));
#61=EDGE_LOOP('',(#153));
#62=EDGE_LOOP('',(#154,#155,#156,#157,#158));
#63=EDGE_LOOP('',(#159,#160,#161,#162,#163,#164));
#64=EDGE_LOOP('',(#165,#166,#167,#168,#169));
#65=EDGE_LOOP('',(#170,#171,#172,#173,#174,#175,#176,#177,#178));
#66=EDGE_LOOP('',(#179,#180,#181,#182,#183));
#67=CIRCLE('',#226,28.5);
#68=CIRCLE('',#227,27.9757068481484);
#69=CIRCLE('',#229,24.);
#70=CIRCLE('',#231,27.);
#71=CIRCLE('',#232,26.5602131894959);
#72=CIRCLE('',#233,26.5602131894959);
#73=CIRCLE('',#234,27.);
#74=CIRCLE('',#236,56.1841879455565);
#75=CIRCLE('',#238,56.1841879455565);
#76=CIRCLE('',#240,45.6373217021976);
#77=CIRCLE('',#242,24.5);
#78=CIRCLE('',#244,26.);
#79=CIRCLE('',#246,27.);
#80=CIRCLE('',#247,27.);
#81=CIRCLE('',#250,28.5);
#82=CIRCLE('',#251,28.5);
#83=CIRCLE('',#252,117.99999996768);
#84=CIRCLE('',#254,1.25);
#85=VERTEX_POINT('',#324);
#86=VERTEX_POINT('',#326);
#87=VERTEX_POINT('',#329);
#88=VERTEX_POINT('',#332);
#89=VERTEX_POINT('',#333);
#90=VERTEX_POINT('',#335);
#91=VERTEX_POINT('',#337);
#92=VERTEX_POINT('',#342);
#93=VERTEX_POINT('',#343);
#94=VERTEX_POINT('',#356);
#95=VERTEX_POINT('',#357);
#96=VERTEX_POINT('',#370);
#97=VERTEX_POINT('',#383);
#98=VERTEX_POINT('',#387);
#99=VERTEX_POINT('',#390);
#100=VERTEX_POINT('',#391);
#101=VERTEX_POINT('',#398);
#102=VERTEX_POINT('',#399);
#103=EDGE_CURVE('',#85,#85,#67,.T.);
#104=EDGE_CURVE('',#86,#86,#68,.T.);
#105=EDGE_CURVE('',#87,#87,#69,.T.);
#106=EDGE_CURVE('',#88,#89,#70,.T.);
#107=EDGE_CURVE('',#89,#90,#24,.T.);
#108=EDGE_CURVE('',#91,#90,#71,.T.);
#109=EDGE_CURVE('',#90,#91,#72,.T.);
#110=EDGE_CURVE('',#89,#88,#73,.T.);
#111=EDGE_CURVE('',#92,#93,#20,.T.);
#112=EDGE_CURVE('',#93,#92,#74,.T.);
#113=EDGE_CURVE('',#94,#95,#21,.T.);
#114=EDGE_CURVE('',#95,#94,#75,.T.);
#115=EDGE_CURVE('',#95,#96,#22,.T.);
#116=EDGE_CURVE('',#93,#94,#76,.T.);
#117=EDGE_CURVE('',#96,#92,#23,.T.);
#118=EDGE_CURVE('',#87,#97,#25,.T.);
#119=EDGE_CURVE('',#97,#97,#77,.T.);
#120=EDGE_CURVE('',#98,#98,#78,.T.);
#121=EDGE_CURVE('',#99,#100,#79,.T.);
#122=EDGE_CURVE('',#100,#98,#26,.T.);
#123=EDGE_CURVE('',#100,#99,#80,.T.);
#124=EDGE_CURVE('',#88,#99,#27,.T.);
#125=EDGE_CURVE('',#101,#102,#81,.T.);
#126=EDGE_CURVE('',#102,#101,#82,.T.);
#127=EDGE_CURVE('',#102,#85,#28,.T.);
#128=EDGE_CURVE('',#101,#96,#83,.T.);
#129=EDGE_CURVE('',#91,#86,#84,.T.);
#130=ORIENTED_EDGE('',*,*,#103,.F.);
#131=ORIENTED_EDGE('',*,*,#104,.T.);
#132=ORIENTED_EDGE('',*,*,#105,.F.);
#133=ORIENTED_EDGE('',*,*,#106,.T.);
#134=ORIENTED_EDGE('',*,*,#107,.T.);
#135=ORIENTED_EDGE('',*,*,#108,.F.);
#136=ORIENTED_EDGE('',*,*,#109,.F.);
#137=ORIENTED_EDGE('',*,*,#107,.F.);
#138=ORIENTED_EDGE('',*,*,#110,.T.);
#139=ORIENTED_EDGE('',*,*,#111,.F.);
#140=ORIENTED_EDGE('',*,*,#112,.F.);
#141=ORIENTED_EDGE('',*,*,#113,.F.);
#142=ORIENTED_EDGE('',*,*,#114,.F.);
#143=ORIENTED_EDGE('',*,*,#115,.F.);
#144=ORIENTED_EDGE('',*,*,#114,.T.);
#145=ORIENTED_EDGE('',*,*,#116,.F.);
#146=ORIENTED_EDGE('',*,*,#112,.T.);
#147=ORIENTED_EDGE('',*,*,#117,.F.);
#148=ORIENTED_EDGE('',*,*,#105,.T.);
#149=ORIENTED_EDGE('',*,*,#118,.T.);
#150=ORIENTED_EDGE('',*,*,#119,.T.);
#151=ORIENTED_EDGE('',*,*,#118,.F.);
#152=ORIENTED_EDGE('',*,*,#120,.F.);
#153=ORIENTED_EDGE('',*,*,#119,.F.);
#154=ORIENTED_EDGE('',*,*,#121,.T.);
#155=ORIENTED_EDGE('',*,*,#122,.T.);
#156=ORIENTED_EDGE('',*,*,#120,.T.);
#157=ORIENTED_EDGE('',*,*,#122,.F.);
#158=ORIENTED_EDGE('',*,*,#123,.T.);
#159=ORIENTED_EDGE('',*,*,#106,.F.);
#160=ORIENTED_EDGE('',*,*,#124,.T.);
#161=ORIENTED_EDGE('',*,*,#123,.F.);
#162=ORIENTED_EDGE('',*,*,#121,.F.);
#163=ORIENTED_EDGE('',*,*,#124,.F.);
#164=ORIENTED_EDGE('',*,*,#110,.F.);
#165=ORIENTED_EDGE('',*,*,#125,.F.);
#166=ORIENTED_EDGE('',*,*,#126,.F.);
#167=ORIENTED_EDGE('',*,*,#127,.T.);
#168=ORIENTED_EDGE('',*,*,#103,.T.);
#169=ORIENTED_EDGE('',*,*,#127,.F.);
#170=ORIENTED_EDGE('',*,*,#125,.T.);
#171=ORIENTED_EDGE('',*,*,#126,.T.);
#172=ORIENTED_EDGE('',*,*,#128,.T.);
#173=ORIENTED_EDGE('',*,*,#117,.T.);
#174=ORIENTED_EDGE('',*,*,#111,.T.);
#175=ORIENTED_EDGE('',*,*,#116,.T.);
#176=ORIENTED_EDGE('',*,*,#113,.T.);
#177=ORIENTED_EDGE('',*,*,#115,.T.);
#178=ORIENTED_EDGE('',*,*,#128,.F.);
#179=ORIENTED_EDGE('',*,*,#108,.T.);
#180=ORIENTED_EDGE('',*,*,#109,.T.);
#181=ORIENTED_EDGE('',*,*,#129,.T.);
#182=ORIENTED_EDGE('',*,*,#104,.F.);
#183=ORIENTED_EDGE('',*,*,#129,.F.);
#184=PLANE('',#225);
#185=PLANE('',#228);
#186=PLANE('',#235);
#187=PLANE('',#237);
#188=PLANE('',#243);
#189=ADVANCED_FACE('',(#39,#37),#184,.F.);
#190=ADVANCED_FACE('',(#40),#185,.F.);
#191=ADVANCED_FACE('',(#41),#34,.T.);
#192=ADVANCED_FACE('',(#42),#186,.F.);
#193=ADVANCED_FACE('',(#43),#187,.T.);
#194=ADVANCED_FACE('',(#44),#17,.F.);
#195=ADVANCED_FACE('',(#45),#35,.F.);
#196=ADVANCED_FACE('',(#46,#38),#188,.T.);
#197=ADVANCED_FACE('',(#47),#36,.T.);
#198=ADVANCED_FACE('',(#48),#18,.T.);
#199=ADVANCED_FACE('',(#49),#19,.T.);
#200=ADVANCED_FACE('',(#50),#16,.F.);
#201=ADVANCED_FACE('',(#51),#15,.T.);
#202=CLOSED_SHELL('',(#189,#190,#191,#192,#193,#194,#195,#196,#197,#198,
#199,#200,#201));
#203=DERIVED_UNIT_ELEMENT(#206,1.);
#204=DERIVED_UNIT_ELEMENT(#438,-3.);
#205=DIMENSIONAL_EXPONENTS(0.,1.,0.,0.,0.,0.,0.);
#206=(
CONVERSION_BASED_UNIT('gram',#208)
MASS_UNIT()
NAMED_UNIT(#205)
);
#207=(
MASS_UNIT()
NAMED_UNIT(*)
SI_UNIT(.KILO.,.GRAM.)
);
#208=MASS_MEASURE_WITH_UNIT(MASS_MEASURE(0.001),#207);
#209=DERIVED_UNIT((#203,#204));
#210=MEASURE_REPRESENTATION_ITEM('density measure',
POSITIVE_RATIO_MEASURE(1.),#209);
#211=PROPERTY_DEFINITION_REPRESENTATION(#216,#213);
#212=PROPERTY_DEFINITION_REPRESENTATION(#217,#214);
#213=REPRESENTATION('material name',(#215),#435);
#214=REPRESENTATION('density',(#210),#435);
#215=DESCRIPTIVE_REPRESENTATION_ITEM('\X2\04220438043F043E0432044B0435\X0\',
'\X2\04220438043F043E0432044B0435\X0\');
#216=PROPERTY_DEFINITION('material property','material name',#445);
#217=PROPERTY_DEFINITION('material property','density of part',#445);
#218=DATE_TIME_ROLE('creation_date');
#219=APPLIED_DATE_AND_TIME_ASSIGNMENT(#220,#218,(#445));
#220=DATE_AND_TIME(#221,#222);
#221=CALENDAR_DATE(2023,9,10);
#222=LOCAL_TIME(11,38,8.,#223);
#223=COORDINATED_UNIVERSAL_TIME_OFFSET(0,0,.BEHIND.);
#224=AXIS2_PLACEMENT_3D('',#322,#255,#256);
#225=AXIS2_PLACEMENT_3D('',#323,#257,#258);
#226=AXIS2_PLACEMENT_3D('',#325,#259,#260);
#227=AXIS2_PLACEMENT_3D('',#327,#261,#262);
#228=AXIS2_PLACEMENT_3D('',#328,#263,#264);
#229=AXIS2_PLACEMENT_3D('',#330,#265,#266);
#230=AXIS2_PLACEMENT_3D('',#331,#267,#268);
#231=AXIS2_PLACEMENT_3D('',#334,#269,#270);
#232=AXIS2_PLACEMENT_3D('',#338,#272,#273);
#233=AXIS2_PLACEMENT_3D('',#339,#274,#275);
#234=AXIS2_PLACEMENT_3D('',#340,#276,#277);
#235=AXIS2_PLACEMENT_3D('',#341,#278,#279);
#236=AXIS2_PLACEMENT_3D('',#354,#280,#281);
#237=AXIS2_PLACEMENT_3D('',#355,#282,#283);
#238=AXIS2_PLACEMENT_3D('',#368,#284,#285);
#239=AXIS2_PLACEMENT_3D('',#369,#286,#287);
#240=AXIS2_PLACEMENT_3D('',#375,#288,#289);
#241=AXIS2_PLACEMENT_3D('',#382,#290,#291);
#242=AXIS2_PLACEMENT_3D('',#385,#293,#294);
#243=AXIS2_PLACEMENT_3D('',#386,#295,#296);
#244=AXIS2_PLACEMENT_3D('',#388,#297,#298);
#245=AXIS2_PLACEMENT_3D('',#389,#299,#300);
#246=AXIS2_PLACEMENT_3D('',#392,#301,#302);
#247=AXIS2_PLACEMENT_3D('',#394,#304,#305);
#248=AXIS2_PLACEMENT_3D('',#395,#306,#307);
#249=AXIS2_PLACEMENT_3D('',#397,#309,#310);
#250=AXIS2_PLACEMENT_3D('',#400,#311,#312);
#251=AXIS2_PLACEMENT_3D('',#401,#313,#314);
#252=AXIS2_PLACEMENT_3D('',#430,#316,#317);
#253=AXIS2_PLACEMENT_3D('',#431,#318,#319);
#254=AXIS2_PLACEMENT_3D('',#432,#320,#321);
#255=DIRECTION('axis',(0.,0.,1.));
#256=DIRECTION('refdir',(1.,0.,0.));
#257=DIRECTION('center_axis',(0.,1.,0.));
#258=DIRECTION('ref_axis',(0.,0.,1.));
#259=DIRECTION('center_axis',(0.,1.,0.));
#260=DIRECTION('ref_axis',(1.,0.,0.));
#261=DIRECTION('center_axis',(-3.06161699786838E-17,1.,3.06161699786838E-17));
#262=DIRECTION('ref_axis',(0.,3.06161699786838E-17,-1.));
#263=DIRECTION('center_axis',(0.,1.,0.));
#264=DIRECTION('ref_axis',(0.,0.,1.));
#265=DIRECTION('center_axis',(0.,1.,0.));
#266=DIRECTION('ref_axis',(1.,0.,0.));
#267=DIRECTION('center_axis',(0.,-1.,0.));
#268=DIRECTION('ref_axis',(1.,0.,0.));
#269=DIRECTION('center_axis',(0.,1.,0.));
#270=DIRECTION('ref_axis',(1.,0.,0.));
#271=DIRECTION('',(0.707106781186545,0.70710678118655,8.6595605623549E-17));
#272=DIRECTION('center_axis',(0.,1.,0.));
#273=DIRECTION('ref_axis',(1.,0.,0.));
#274=DIRECTION('center_axis',(0.,1.,0.));
#275=DIRECTION('ref_axis',(1.,0.,0.));
#276=DIRECTION('center_axis',(0.,1.,0.));
#277=DIRECTION('ref_axis',(1.,0.,0.));
#278=DIRECTION('center_axis',(1.,0.,0.));
#279=DIRECTION('ref_axis',(0.,0.,-1.));
#280=DIRECTION('center_axis',(1.,0.,0.));
#281=DIRECTION('ref_axis',(0.,1.,0.));
#282=DIRECTION('center_axis',(1.,0.,0.));
#283=DIRECTION('ref_axis',(0.,0.,-1.));
#284=DIRECTION('center_axis',(-1.,0.,0.));
#285=DIRECTION('ref_axis',(0.,1.,0.));
#286=DIRECTION('center_axis',(1.,0.,0.));
#287=DIRECTION('ref_axis',(0.,-1.,-1.22464679914735E-16));
#288=DIRECTION('center_axis',(0.,-0.96372836772712,0.266885056228372));
#289=DIRECTION('ref_axis',(-0.0219118905909004,0.266820978648345,0.963496982041912));
#290=DIRECTION('center_axis',(0.,-1.,0.));
#291=DIRECTION('ref_axis',(1.,0.,0.));
#292=DIRECTION('',(-0.707106781186542,-0.707106781186553,-8.65956056235487E-17));
#293=DIRECTION('center_axis',(0.,-1.,0.));
#294=DIRECTION('ref_axis',(1.,0.,0.));
#295=DIRECTION('center_axis',(0.,-1.,0.));
#296=DIRECTION('ref_axis',(0.,0.,-1.));
#297=DIRECTION('center_axis',(0.,1.,0.));
#298=DIRECTION('ref_axis',(1.,0.,0.));
#299=DIRECTION('center_axis',(0.,1.,0.));
#300=DIRECTION('ref_axis',(1.,0.,0.));
#301=DIRECTION('center_axis',(0.,-1.,0.));
#302=DIRECTION('ref_axis',(1.,0.,0.));
#303=DIRECTION('',(0.707106781186549,-0.707106781186546,-8.65956056235496E-17));
#304=DIRECTION('center_axis',(0.,-1.,0.));
#305=DIRECTION('ref_axis',(1.,0.,0.));
#306=DIRECTION('center_axis',(0.,1.,0.));
#307=DIRECTION('ref_axis',(-1.,0.,0.));
#308=DIRECTION('',(0.,-1.,0.));
#309=DIRECTION('center_axis',(0.,1.,0.));
#310=DIRECTION('ref_axis',(-1.,0.,0.));
#311=DIRECTION('center_axis',(0.,1.,0.));
#312=DIRECTION('ref_axis',(1.,0.,0.));
#313=DIRECTION('center_axis',(0.,1.,0.));
#314=DIRECTION('ref_axis',(1.,0.,0.));
#315=DIRECTION('',(0.,-1.,0.));
#316=DIRECTION('center_axis',(1.,8.93483750866385E-9,2.65488705994956E-16));
#317=DIRECTION('ref_axis',(-1.22339989433404E-16,4.34063512685366E-8,-0.999999999999999));
#318=DIRECTION('center_axis',(6.12323399573677E-17,-1.,-6.12323399573677E-17));
#319=DIRECTION('ref_axis',(1.02561234359057E-13,6.23283101543947E-17,-1.));
#320=DIRECTION('center_axis',(-1.,-6.12323399573614E-17,-1.02685890979365E-13));
#321=DIRECTION('ref_axis',(-1.02685890979365E-13,-7.79103876929934E-17,
1.));
#322=CARTESIAN_POINT('',(0.,0.,0.));
#323=CARTESIAN_POINT('Origin',(-6.36206069834701,9.55221209033917,0.));
#324=CARTESIAN_POINT('',(22.137939301653,9.55221209033917,-3.49024337756996E-15));
#325=CARTESIAN_POINT('Origin',(-6.36206069834701,9.55221209033917,0.));
#326=CARTESIAN_POINT('',(-6.362060698347,9.55221209033917,27.9757068481484));
#327=CARTESIAN_POINT('Origin',(-6.36206069834701,9.55221209033917,3.11601260307057E-17));
#328=CARTESIAN_POINT('Origin',(-6.36206069834701,0.0522120903391615,0.));
#329=CARTESIAN_POINT('',(-30.362060698347,0.0522120903391615,2.93915231795365E-15));
#330=CARTESIAN_POINT('Origin',(-6.36206069834701,0.0522120903391615,0.));
#331=CARTESIAN_POINT('Origin',(-6.36206069834701,7.55221209033917,0.));
#332=CARTESIAN_POINT('',(20.637939301653,7.05221209033917,-3.30654635769785E-15));
#333=CARTESIAN_POINT('',(-33.362060698347,7.05221209033917,-3.30654635769785E-15));
#334=CARTESIAN_POINT('Origin',(-6.36206069834701,7.05221209033917,0.));
#335=CARTESIAN_POINT('',(-32.9222738878429,7.49199890084327,-3.25268800671875E-15));
#336=CARTESIAN_POINT('',(-32.862060698347,7.55221209033917,-3.24531401774049E-15));
#337=CARTESIAN_POINT('',(-6.36206069834973,7.49199890084325,26.5602131894959));
#338=CARTESIAN_POINT('Origin',(-6.36206069834701,7.49199890084325,1.90179644949211E-32));
#339=CARTESIAN_POINT('Origin',(-6.36206069834701,7.49199890084325,1.90179644949211E-32));
#340=CARTESIAN_POINT('Origin',(-6.36206069834701,7.05221209033917,0.));
#341=CARTESIAN_POINT('Origin',(-5.36206069834701,68.7364000358957,0.));
#342=CARTESIAN_POINT('',(-5.36206069834701,14.5886423879119,-14.9894401762317));
#343=CARTESIAN_POINT('',(-5.36206069834701,14.5886423879119,14.9894401762317));
#344=CARTESIAN_POINT('Ctrl Pts',(-5.36206069834701,14.5886423877373,-14.9894401762093));
#345=CARTESIAN_POINT('Ctrl Pts',(-5.36206069834701,14.7384172325256,-13.8220543085755));
#346=CARTESIAN_POINT('Ctrl Pts',(-5.36206069834701,14.8700654904116,-12.6573981137585));
#347=CARTESIAN_POINT('Ctrl Pts',(-5.36206069834701,15.3696273021363,-7.56695822798681));
#348=CARTESIAN_POINT('Ctrl Pts',(-5.36206069838689,15.5477518705992,-3.69821646441474));
#349=CARTESIAN_POINT('Ctrl Pts',(-5.36206069838689,15.5477515495466,3.69822669317216));
#350=CARTESIAN_POINT('Ctrl Pts',(-5.36206069834701,15.3696266452278,7.56696844128075));
#351=CARTESIAN_POINT('Ctrl Pts',(-5.36206069834701,14.8700647211418,12.6574049255986));
#352=CARTESIAN_POINT('Ctrl Pts',(-5.36206069834701,14.7384167954709,13.8220577192755));
#353=CARTESIAN_POINT('Ctrl Pts',(-5.36206069834701,14.5886423881176,14.9894401762581));
#354=CARTESIAN_POINT('Origin',(-5.36206069834701,68.7364000358957,0.));
#355=CARTESIAN_POINT('Origin',(-7.36206069834701,68.7364000358957,0.));
#356=CARTESIAN_POINT('',(-7.36206069834701,14.5886423879119,14.9894401762317));
#357=CARTESIAN_POINT('',(-7.36206069834701,14.5886423879119,-14.9894401762317));
#358=CARTESIAN_POINT('Ctrl Pts',(-7.36206069834701,14.5886423881179,14.9894401762581));
#359=CARTESIAN_POINT('Ctrl Pts',(-7.36206069834701,14.7384168170779,13.8220575508863));
#360=CARTESIAN_POINT('Ctrl Pts',(-7.36206069834701,14.8700647591376,12.6574045894567));
#361=CARTESIAN_POINT('Ctrl Pts',(-7.36206069834701,15.3696266608863,7.56696810911105));
#362=CARTESIAN_POINT('Ctrl Pts',(-7.36206069838689,15.5477515408147,3.69822652967995));
#363=CARTESIAN_POINT('Ctrl Pts',(-7.36206069838689,15.5477518618673,-3.69821630092253));
#364=CARTESIAN_POINT('Ctrl Pts',(-7.36206069834701,15.3696273177948,-7.56695789581711));
#365=CARTESIAN_POINT('Ctrl Pts',(-7.36206069834701,14.8700655284073,-12.6573977776166));
#366=CARTESIAN_POINT('Ctrl Pts',(-7.36206069834701,14.7384172541327,-13.8220541401864));
#367=CARTESIAN_POINT('Ctrl Pts',(-7.36206069834701,14.5886423877377,-14.9894401762094));
#368=CARTESIAN_POINT('Origin',(-7.36206069834701,68.7364000358957,0.));
#369=CARTESIAN_POINT('Origin',(-6.36206069834701,68.7364000358957,0.));
#370=CARTESIAN_POINT('',(-6.36206174226597,14.5915667171492,-14.999999999559));
#371=CARTESIAN_POINT('Ctrl Pts',(-7.36206069833708,14.5886423877909,-14.9894401757947));
#372=CARTESIAN_POINT('Ctrl Pts',(-7.02835185031557,14.5905941351566,-14.9964906554729));
#373=CARTESIAN_POINT('Ctrl Pts',(-6.69495300201348,14.5915667151167,-14.9999999922227));
#374=CARTESIAN_POINT('Ctrl Pts',(-6.36206174226597,14.5915667171492,-14.999999999559));
#375=CARTESIAN_POINT('Origin',(-6.36206069834673,2.4116475484422,-28.9819815523115));
#376=CARTESIAN_POINT('Ctrl Pts',(-6.36206174226597,14.5915667171492,-14.999999999559));
#377=CARTESIAN_POINT('Ctrl Pts',(-6.07476146128857,14.5915667189032,-15.0000000058907));
#378=CARTESIAN_POINT('Ctrl Pts',(-5.78783925633501,14.5908423727615,-14.9973860936138));
#379=CARTESIAN_POINT('Ctrl Pts',(-5.45497769814688,14.5891668878307,-14.9913347730709));
#380=CARTESIAN_POINT('Ctrl Pts',(-5.4085236945954,14.5889141337484,-14.9904218291504));
#381=CARTESIAN_POINT('Ctrl Pts',(-5.36206069836377,14.5886423877907,-14.989440175794));
#382=CARTESIAN_POINT('Origin',(-6.36206069834701,-0.197787909660839,0.));
#383=CARTESIAN_POINT('',(-30.862060698347,-0.44778790966084,-3.00038465791102E-15));
#384=CARTESIAN_POINT('',(-30.612060698347,-0.197787909660839,-2.96976848793233E-15));
#385=CARTESIAN_POINT('Origin',(-6.36206069834701,-0.44778790966084,0.));
#386=CARTESIAN_POINT('Origin',(-33.362060698347,-0.44778790966084,0.));
#387=CARTESIAN_POINT('',(-32.362060698347,-0.44778790966084,3.18408167778312E-15));
#388=CARTESIAN_POINT('Origin',(-6.36206069834701,-0.44778790966084,0.));
#389=CARTESIAN_POINT('Origin',(-6.36206069834701,0.0522120903391605,0.));
#390=CARTESIAN_POINT('',(20.637939301653,0.552212090339161,-3.30654635769785E-15));
#391=CARTESIAN_POINT('',(-33.362060698347,0.552212090339159,3.30654635769785E-15));
#392=CARTESIAN_POINT('Origin',(-6.36206069834701,0.552212090339161,0.));
#393=CARTESIAN_POINT('',(-32.862060698347,0.0522120903391605,3.24531401774049E-15));
#394=CARTESIAN_POINT('Origin',(-6.36206069834701,0.552212090339161,0.));
#395=CARTESIAN_POINT('Origin',(-6.36206069834701,3.80221209033916,0.));
#396=CARTESIAN_POINT('',(20.637939301653,3.80221209033916,-3.30654635769785E-15));
#397=CARTESIAN_POINT('Origin',(-6.36206069834701,10.8022120903392,0.));
#398=CARTESIAN_POINT('',(-6.36206069834701,12.0522120903392,-28.5));
#399=CARTESIAN_POINT('',(22.137939301653,12.0522120903392,-3.49024337756996E-15));
#400=CARTESIAN_POINT('Origin',(-6.36206069834701,12.0522120903392,0.));
#401=CARTESIAN_POINT('Origin',(-6.36206069834701,12.0522120903392,0.));
#402=CARTESIAN_POINT('',(22.137939301653,10.8022120903392,-3.49024337756996E-15));
#403=CARTESIAN_POINT('Ctrl Pts',(-6.36206171957724,12.0522120561521,-28.5000001382069));
#404=CARTESIAN_POINT('Ctrl Pts',(-34.8620668204342,12.0522118015092,-28.5000001382069));
#405=CARTESIAN_POINT('Ctrl Pts',(-34.8620668204342,12.052210564428,4.96265002785715E-6));
#406=CARTESIAN_POINT('Ctrl Pts',(-34.8620668204342,12.0522093273467,28.500010063507));
#407=CARTESIAN_POINT('Ctrl Pts',(-6.36206171957724,12.0522095819896,28.500010063507));
#408=CARTESIAN_POINT('Ctrl Pts',(22.1379433812798,12.0522098366325,28.500010063507));
#409=CARTESIAN_POINT('Ctrl Pts',(22.1379433812798,12.0522110737138,4.96265004996339E-6));
#410=CARTESIAN_POINT('Ctrl Pts',(22.1379433812798,12.052212310795,-28.5000001382069));
#411=CARTESIAN_POINT('Ctrl Pts',(-6.36206171957724,12.0522120561521,-28.5000001382069));
#412=CARTESIAN_POINT('Ctrl Pts',(-6.36206174972469,15.4263579814803,-14.9567264705827));
#413=CARTESIAN_POINT('Ctrl Pts',(-21.3187933294168,15.4263578478443,-14.9567264705827));
#414=CARTESIAN_POINT('Ctrl Pts',(-21.3187933294168,15.4263571986272,5.10910942164246E-6));
#415=CARTESIAN_POINT('Ctrl Pts',(-21.3187933294168,15.4263565494101,14.9567366888015));
#416=CARTESIAN_POINT('Ctrl Pts',(-6.36206174972469,15.426356683046,14.9567366888016));
#417=CARTESIAN_POINT('Ctrl Pts',(8.59466982996745,15.426356816682,14.9567366888016));
#418=CARTESIAN_POINT('Ctrl Pts',(8.59466982996745,15.4263574658991,5.10910943324376E-6));
#419=CARTESIAN_POINT('Ctrl Pts',(8.59466982996745,15.4263581151163,-14.9567264705827));
#420=CARTESIAN_POINT('Ctrl Pts',(-6.36206174972469,15.4263579814803,-14.9567264705827));
#421=CARTESIAN_POINT('Ctrl Pts',(-6.36206175080933,15.5477517582674,-0.999993833158971));
#422=CARTESIAN_POINT('Ctrl Pts',(-7.36206069834702,15.5477517493326,-0.999993833158972));
#423=CARTESIAN_POINT('Ctrl Pts',(-7.36206069834702,15.5477517059263,5.11437871425935E-6));
#424=CARTESIAN_POINT('Ctrl Pts',(-7.36206069834702,15.54775166252,1.0000040619164));
#425=CARTESIAN_POINT('Ctrl Pts',(-6.36206175080933,15.5477516714549,1.0000040619164));
#426=CARTESIAN_POINT('Ctrl Pts',(-5.36206280327165,15.5477516803897,1.0000040619164));
#427=CARTESIAN_POINT('Ctrl Pts',(-5.36206280327165,15.547751723796,5.11437871503501E-6));
#428=CARTESIAN_POINT('Ctrl Pts',(-5.36206280327165,15.5477517672023,-0.999993833158971));
#429=CARTESIAN_POINT('Ctrl Pts',(-6.36206175080933,15.5477517582674,-0.999993833158971));
#430=CARTESIAN_POINT('Origin',(-6.36206069653839,-102.447784944144,0.026315419618805));
#431=CARTESIAN_POINT('Origin',(-6.36206069834701,8.5344451373728,1.90179644949211E-32));
#432=CARTESIAN_POINT('Origin',(-6.36206069834981,8.5344451373728,27.25));
#433=UNCERTAINTY_MEASURE_WITH_UNIT(LENGTH_MEASURE(0.01),#437,
'DISTANCE_ACCURACY_VALUE',
'Maximum model space distance between geometric entities at asserted c
onnectivities');
#434=UNCERTAINTY_MEASURE_WITH_UNIT(LENGTH_MEASURE(0.01),#437,
'DISTANCE_ACCURACY_VALUE',
'Maximum model space distance between geometric entities at asserted c
onnectivities');
#435=(
GEOMETRIC_REPRESENTATION_CONTEXT(3)
GLOBAL_UNCERTAINTY_ASSIGNED_CONTEXT((#433))
GLOBAL_UNIT_ASSIGNED_CONTEXT((#437,#439,#440))
REPRESENTATION_CONTEXT('','3D')
);
#436=(
GEOMETRIC_REPRESENTATION_CONTEXT(3)
GLOBAL_UNCERTAINTY_ASSIGNED_CONTEXT((#434))
GLOBAL_UNIT_ASSIGNED_CONTEXT((#437,#439,#440))
REPRESENTATION_CONTEXT('','3D')
);
#437=(
LENGTH_UNIT()
NAMED_UNIT(*)
SI_UNIT(.MILLI.,.METRE.)
);
#438=(
LENGTH_UNIT()
NAMED_UNIT(*)
SI_UNIT(.CENTI.,.METRE.)
);
#439=(
NAMED_UNIT(*)
PLANE_ANGLE_UNIT()
SI_UNIT($,.RADIAN.)
);
#440=(
NAMED_UNIT(*)
SI_UNIT($,.STERADIAN.)
SOLID_ANGLE_UNIT()
);
#441=SHAPE_DEFINITION_REPRESENTATION(#442,#443);
#442=PRODUCT_DEFINITION_SHAPE('',$,#445);
#443=SHAPE_REPRESENTATION('',(#224),#435);
#444=PRODUCT_DEFINITION_CONTEXT('part definition',#449,'design');
#445=PRODUCT_DEFINITION('\X2\0414043504420430043B044C\X0\26',
'\X2\04170420\X0\1-\X2\041B0420\X0\-PG42 (zeta35038)',#446,#444);
#446=PRODUCT_DEFINITION_FORMATION('',$,#451);
#447=PRODUCT_RELATED_PRODUCT_CATEGORY('\X2\04170420\X0\1-\X2\041B0420\X0\-
PG42 (zeta35038)','\X2\04170420\X0\1-\X2\041B0420\X0\-PG42 (zeta35038)',
(#451));
#448=APPLICATION_PROTOCOL_DEFINITION('international standard',
'automotive_design',2009,#449);
#449=APPLICATION_CONTEXT(
'Core Data for Automotive Mechanical Design Process');
#450=PRODUCT_CONTEXT('part definition',#449,'mechanical');
#451=PRODUCT('\X2\0414043504420430043B044C\X0\26',
'\X2\04170420\X0\1-\X2\041B0420\X0\-PG42 (zeta35038)',$,(#450));
#452=PRESENTATION_STYLE_ASSIGNMENT((#453));
#453=SURFACE_STYLE_USAGE(.BOTH.,#456);
#454=SURFACE_STYLE_RENDERING_WITH_PROPERTIES($,#460,(#455));
#455=SURFACE_STYLE_TRANSPARENT(0.);
#456=SURFACE_SIDE_STYLE('',(#457,#454));
#457=SURFACE_STYLE_FILL_AREA(#458);
#458=FILL_AREA_STYLE('',(#459));
#459=FILL_AREA_STYLE_COLOUR('',#460);
#460=COLOUR_RGB('',0.749019607843137,0.749019607843137,0.749019607843137);
ENDSEC;
END-ISO-10303-21;
